Bastel-Tipp: Federboa mit LED-Lichterkette beleuchten

Licht aus! Boa an! Wir zeigen Euch in unserem Bastel-Tipp, wie Ihr ganz einfach mit einer LED-Lichterkette und wenigen Handgriffen Eure Federboa zum Leuchten bringen könnt. So entsteht im Handumdrehen ein tolles Accessoire mit dem Gewissen Etwas – das Euch im wahrsten Sinne des Wortes – ein Leuchten verleiht.

------------------------------------------------------------1-----------------------------------------------------

Damit Ihr die Federboa beleuchten könnt, benötigt Ihr eine Micro-LED Lichterkette mit Batterien. Damit Ihr das Batteriefach an der Federboa festmachen könnt, näht Ihr zunächst eine kleine Tasche. Wir haben dafür einen farblich passenden Stoffrest aus Filz verwendet.

Tipp: Natürlich könnt Ihr für das Täschchen auch andere Stoffreste verwenden.

Schneidet Euch aus dem Filz oder Eurem Stoff zwei Stücke. Ein Stück sollte 15 cm x 9 cm sein, das zweite Stoffstück 10 cm x 9 cm.

------------------------------------------------------------2-----------------------------------------------------

Legt den kleineren Stoffzuschnitt mittig auf den Größeren – oben und unten steht also gleich viel Stoff über.

------------------------------------------------------------3-----------------------------------------------------

Die beiden Stoffteile werden jetzt schmal aufeinander genäht. Eine kurze Seit lasst Ihr aber offen – so entsteht eine kleine Tasche, in die später das Batteriefach Eurer Lichterkette kommt.

------------------------------------------------------------4-----------------------------------------------------

Jetzt kommt der reißfeste Faden zum Einsatz:  Näht mit einem Heftstich und mit etwas Abstand an den zwei kurzen Seiten entlang.

------------------------------------------------------------5-----------------------------------------------------

Lasst die Fadenenden einfach links und rechts wegstehen.

------------------------------------------------------------6-----------------------------------------------------

Die Batterietasche wird dann mit den Fadenenden einfach oben und unten an ein Ende der Federboa geknotet.

Wichtig: Die Öffnung der Tasche muss zum langen Teil der Fedeboa hin zeigen, sonst rutscht Euch das Batteriefach beim Tragen aus der Öffnung.

------------------------------------------------------------7-----------------------------------------------------

Legt den Draht mit den LED-Lichtern spiralförmig bis ans andere Ende der Federboa. Fixiert den Draht entlang der Boa mit ein paar Fäden.

------------------------------------------------------------8-----------------------------------------------------

Fertig! Jetzt habt Ihr Euer leuchtendes Accessoires auch schon fertig gestellt. Los gehts zum Karneval!

Möchtest Du diese Anleitung später nacharbeiten? Dann klicke dazu einfach auf das Drucker Symbol um diese zu speichern oder auszudrucken.

Falls sich das Dokument nicht öffnen lässt, benötigst Du evtl. den Adobe Reader. Dieser kann auf www.adobe.com kostenlos heruntergeladen werden.

Schreibe einen Kommentar