Flieg, flieg, flieg! Feenkostüm mit Feenflügel und Gürtel nähen

Hola, die Waldfee! Als feengleiches Wesen aus dem Zauberwald geht man doch gern im Fasching. Wir zeigen Euch, wie Ihr aus Organza und funkelndem Textilglitter wunderschöne Flügel mit glitzernden Ornamenten und einen passenden Blütengürtel für das Feenkostüm bastelt und näht. Mit diesem tollen Kostümaccessoires fliegt Ihr quasi durch den Karneval und verzaubert alle Narren, die mit Euch feiern.

fluegel_schmuckbild_quadrat

Artikel
einblenden


------------------------------------------------------------1-----------------------------------------------------

Wir haben für unser Kleid aus dem burda Schnittmusterbogen das Modell A gewählt. Die Schnürung haben wir weg gelassen. Ihr schneidet das Kleid einfach nach der beigefügten Anleitung zu und näht es fertig.

Wenn Ihr lieber mit dem Gürtel anfangen wollt: Der Blütengürtel wird ab Schritt 31 genäht.

------------------------------------------------------------2-----------------------------------------------------

Organza ohne Fransen schneiden

schere_detail

Für unsere Feenflügel verwenden wir Organza als Material. Organza kann leicht einmal fransen – aber mit unserer Profi-Schneiderschere mit Microverzahnung lassen sich sehr glatte Stoffe, wie Organza ideal zuschneiden. Die Mikroverzahnung verhindert das Verrutschen der Stofflagen und garantiert für gerade und saubere Schnittkanten. Wir haben sie für unsere Feenflügel sehr gerne verwendet.

------------------------------------------------------------3-----------------------------------------------------

feenfluegel_schritt-1

Zuerst schneidet Ihr diagonal zum Fadenlauf drei 3 cm breite Streifen, die Länge ergibt sich durch die Stoffbreite.

 Wichtig! Alle Organza-Teile müssen diagonal, im schrägen Fadenlauf aus dem Stoff geschnitten werden, damit der Organza später nicht ausfranst.

------------------------------------------------------------4-----------------------------------------------------

feenfluegel_schritt-2

Außerdem benötigt Ihr einen Organza-Streifen mit einer Breite von 7 cm. Die Länge ergibt sich wieder durch die Stoffbreite. Diesen Streifen schneidet Ihr wellig zu.

------------------------------------------------------------5-----------------------------------------------------

feenfluegel_schritt-3

Aus den restlichen Organza-Stücken schneidet Ihr die Flügelteile für Eure Feenflüge aus. Nehmt Euch dazu die Vorlage aus dem Schnittmusterbogen. Legt die Vorlage auf den Organza und schneidet jede Vorlage zweimal mit ca. 2,5 cm Nahtzugabe aus. Der komplette Feenflügel besteht aus vier Einzelteilen.

------------------------------------------------------------6-----------------------------------------------------

feenfluegel_schritt-4

Jetzt beginnen wir die Flügel mit Glitzer zu verzieren: Schabloniert auf die Flügel mit Textilglitter ein hübsches, florales Muster – das passt ganz besonders toll zu einem Feenkostüm. Legt für das Schablonieren die Flügelteile auf ein Stück Alufolie. Positioniert Eure Schablone auf dem Flügel. Falls etwas vom Organza übersteht, klebt den Stoff mit Malerkrepp ab, damit dieser nicht verschmutzt.

 Tipp! Besprüht die Schablone vorher mit Haftspray, so bleibt sie schön flach auf dem Organza liegen und verrutscht nicht. 

------------------------------------------------------------7-----------------------------------------------------

feenfluegel_schritt-5

Dann nehmt Ihr Euch einen Spachtel und streicht den Textilglitter über die Schablone. Tragt gleichzeitig die Farben Gold und Silber auf. Beim Aufstreichen vermischt Ihr beide Farben und die Feenflügel glitzern so in beiden Farben.

Wichtig: SOFORT nach dem Aufstreichen zieht Ihr zuerst das Malerkrepp und anschließend die Schablone vorsichtig ab.

------------------------------------------------------------8-----------------------------------------------------

feenfluegel_schritt-6

Nehmt den schablonierten Organza vorsichtig von der Alufolie und legt ihn zum Trocknen auf eine abwaschbare Unterlage, damit die Glitzerornamente auf Euren Flügeln schön fixieren.

------------------------------------------------------------9-----------------------------------------------------

feenfluegel_schritt-7

Während Eure Feenflügel trocknen, bereitet Ihr die Rahmen aus Draht für die Flügel vor. Nehmt Euch die Schnittvorlage und biegt den Aludraht einmal entlang des Schnittmusters. Beginnt dabei an der innen liegenden Spitze des jeweiligen Flügelteils.

------------------------------------------------------------10-----------------------------------------------------

feenfluegel_schritt-8

Wenn Ihr wieder an der innenliegenden Spitze angekommen seid, wickelt Ihr den Aludraht noch einmal großzügig um den Draht. Der Feen-Flügel erhält so wesentlich mehr Stabilität und ist besser für eine lange Faschingsparty geeignet.

------------------------------------------------------------11-----------------------------------------------------

feenfluegel_schritt-9

Wieder am Anfang des Flügels angekommen, verdreht Ihr die Drahtenden wieder miteinander.

------------------------------------------------------------12-----------------------------------------------------

feenfluegel_schritt-10

Jetzt nehmt Ihr das grüne Kreppband zur Hand und umwickelt damit den Drahtflügel.

------------------------------------------------------------13-----------------------------------------------------

feenfluegel_schritt-11

Die Drahtenden braucht Ihr nicht mit umwickeln, die schneiden wir später ohnehin ab.

------------------------------------------------------------14-----------------------------------------------------

feenfluegel_schritt-12

Jetzt geht es weiter mit unseren Flügelteilen: Wenn der Textilglitter auf den Organza-Flügeln getrocknet ist, werden die Ränder vom Organza auf einer Breite von ca. 2 cm mit Textilkleber eingestrichen. Das hat den Vorteil, dass der Organza nicht ausfranst und sich besser nähen lässt.

------------------------------------------------------------15-----------------------------------------------------

feenfluegel_schritt-13

Nachdem der Textilkleber getrocknet ist, verseht Ihr die innenliegende Spitze, der Flügel mit je einem kleinen Loch.

------------------------------------------------------------16-----------------------------------------------------

feenfluegel_schritt-14

Durch dieses Loch steck Ihr die Enden der Drahtflügel. Der Drahtflügel liegt jetzt auf der Rückseite vom Organza-Flügel, also auf der Seite, wo kein Glitter aufschabliniert ist.

------------------------------------------------------------17-----------------------------------------------------

feenfluegel_schritt-15

Als Nächstes werden die Organza-Flügel mit den Drahtflügeln verbunden. Dafür schlagt Ihr die Nahtzugabe von 2,5 cm um den Draht. Näht dann so nah wie möglich am Draht entlang um den Flügel.

Tipp: Das Festnähen des Stoffs an den Drahtflügeln funktioniert besonders gut mit einem Reißverschluss-Füßchen.

------------------------------------------------------------18-----------------------------------------------------

feenfluegel_schritt-16

Die überstehenden Drahtenden könnt Ihr jetzt mit einem Seitenschneider abtrennen.

------------------------------------------------------------19-----------------------------------------------------

feenfluegel_schritt-17

Legt Euch die fertigen Flügelteile so zusammen wie Eure Feenflügel am Ende aussehen sollen.

------------------------------------------------------------20-----------------------------------------------------

feenfluegel_schritt-18

Dann beginnt Ihr damit die Flügelteile so wie im Schnittmuster angegeben, mit einer Handnaht zu verbinden. Wir haben für das Zusammennähen Sticktwist verwendet, der farblich gut zum Organza passt.

------------------------------------------------------------21-----------------------------------------------------

feenfluegel_schritt-19

Jetzt bereitet Ihr die Rüschen vor. Dafür nehmt Ihr zunächst die drei schmalen langen Streifen und steppt euch jeweils genau mittig eine Naht durch den ganzen Streifen, mit einem größerem Stich. An Anfang und Ende lasst Ihr jeweils ca. 10 cm von den Fäden stehen. Indem Ihr an den Ober- bzw. Unterfäden an Anfang und Ende vorsichtig zieht, „reiht“ sich der Streifen zur Rüsche zusammen. Wenn der Streifen soweit eingereiht ist, dass es Euch gefällt, verknotet Ihr die beiden Fäden jeweils an Anfang und Ende miteinander.

Den breiteren, welligen Streifen bereitet Ihr ganz genauso vor. Allerdings näht Ihr hier mittig zwei parallele Nähte entlang des Streifens und reiht diesen genauso ein.

Tipp: Wer eine Reihfunktion an seiner Nähmaschine hat, kann natürlich die Streifen auch mit dieser zur Rüsche reihen. 

------------------------------------------------------------22-----------------------------------------------------

feenfluegel_schritt-20

Um die Flügel am Kleid zu befestigen verwenden wir Klettband. Schneidet zwei Stücke à 15 cm ab. Ihr klebt vom Klettband jeweils die Hakenteile an den großen Flügelteilen im Bereich der Handnaht rechts und links auf der Vorderseite der Flügel auf. Die Klettteile stoßen mittig zusammen. Wir haben für das Aufkleben des Klettbandes Heißkleber verwendet.

Damit die Rückseite der Feenflügel auch schön aussieht, haben wir das Klettband mit der welligen, etwas breiteren Rüsche verdeckt. Auch diese haben wir vorsichtig mit Heißkleber aufgeklebt.

------------------------------------------------------------23-----------------------------------------------------

feenfluegel_schritt-21

Wie Ihr auf dem Bild seht, ist das Klettband durch die breite Rüsche sehr schön verdeckt, so dass auch die Rückseite der Flügel wunderschön anzusehen ist.

------------------------------------------------------------24-----------------------------------------------------

feenfluegel_schritt-22

Um die Nahtzugabe der Außenkanten auf der Rückseite der Flügel zu verdecken, klebt Ihr die schmalen Rüschen auf den Flügel. Hier ist es wichtig, dass Ihr darauf achtet, dass der Kleber auf der Vorderseite nicht zu sehen ist und die Nahtzugabe und der Draht auf der Rückseite verdeckt sind.

------------------------------------------------------------25-----------------------------------------------------

feenfluegel_schritt-23

 Tipp: Selbstverständlich könnt Ihr alles, was wir geklebt haben, auch von Hand annähen. 

------------------------------------------------------------26-----------------------------------------------------

Die beiden Flauschteile des Klettbandes näht Ihr auf dem Kleid fest. Dies machen wir am Rückteil, genau rechts und links neben dem Reißverschluss mit einem Abstand von ca. 5 cm zur Querteilungsnaht. Achtet darauf, dass sich der Reißverschluss noch gut öffnen und schließen lässt. Jetzt könnt Ihr Eure Feenflügel jederzeit an Eurem Faschingskostüm anbringen.

------------------------------------------------------------27-----------------------------------------------------

Gürtel nähen

Unser schöne Feenkostüm braucht natürlich auch noch einen hübschen Gürtel. Den nähen wir jetzt.

IMG_2242 Schritt 2

Zuschneiden

Pannesamt in Lila:

1 mal 80 cm x 10 cm

Vlieseline S 520:

1 mal 78 cm x 4 cm

Organza grün-rot:

1 mal Streifen 100 cm x 4 cm

Organza pink-blau:

1 mal Streifen 100 cm x 3 cm

Die Organzastreifen schneidet Ihr an einer langen Seite gerade an der anderen langen Seite wellig.

 Wichtig! Alle Organza-Teile müssen diagonal, im schrägen Fadenlauf aus dem Stoff geschnitten werden, damit der Organza später nicht ausfranst.

------------------------------------------------------------28-----------------------------------------------------

IMG_2222 Schritt 3

Bügelt euch als Erstes die Vlieseline auf die linke Stoffseite des Pannesamtstreifens mit 1 cm Abstand zu einer langen und beiden kurzen Kanten auf.

------------------------------------------------------------29-----------------------------------------------------

IMG_2225 Schritt 4

Dann bügelt Ihr an allen Kanten rund herum 1 cm Nahtzugabe auf die linke Stoffseite um. Faltet dann den Blumengürtel zur Hälfte, linke Stoffseite innen, und bügelt die Bruchkante ein. Dann näht Ihr die Außenkanten rings herum schmalkantig zusammen.

------------------------------------------------------------30-----------------------------------------------------

IMG_2232 Schritt 5

Jetzt schneidet Ihr euch 4 cm vom Klett-Verschlussband ab und näht das Hakenband mit der Nähmaschine bei ca. 5 cm Abstand zur kurzen Kante und das Flauschband auf der gegenüberliegenden Seite direkt an der Kante an.

------------------------------------------------------------31-----------------------------------------------------

IMG_2255 Schritt 6

Jetzt wird der Gürtel noch mit einer Blume verziert. Legt dafür den pink-blauen Organza Streifen auf den grün-roten Streifen und näht euch die untere gerade Kante bei ca. 0,4 cm zusammen. An Anfang und Ende lasst Ihr vom Faden jeweils 10 cm stehen. Zieht an den Ober- bzw. Unterfäden und reiht damit die Kante ein soweit möglich. Dann rollt Ihr den Streifen von der Seite her zu einer Blume auf. Formt die Blume schön aus und näht sie von Hand auf eurem Gürtel fest.

------------------------------------------------------------32-----------------------------------------------------

fluegel_schmuckbild_quadrat

Fertig! Jetzt könnt Ihr zur nächsten Faschingsparty los-flieg-flieg-fliegen!

Möchtest Du diese Anleitung später nacharbeiten? Dann klicke dazu einfach auf das Drucker Symbol um diese zu speichern oder auszudrucken.

Falls sich das Dokument nicht öffnen lässt, benötigst Du evtl. den Adobe Reader. Dieser kann auf www.adobe.com kostenlos heruntergeladen werden.

 

Schreibe einen Kommentar